Nirvana - Blew || Lirik Lagu Dan Kunci Gitar Edisi Deskripsi Lagu

Nirvana - Blew || Lirik Lagu Dan Kunci Gitar Edisi Deskripsi Lagu (New Version) - Hallo brother and sister BilikLagu Indonesia, Did you enjoy your hobby and singing with a guitar? Your right to visit this site, because we share a lot of the lyrics and guitar chords of the singer around the world. What do you look for Nirvana - Blew || Lirik Lagu Dan Kunci Gitar Edisi Deskripsi Lagu, I have provided the lyrics and chord guitar from scratch again until the end of the song. Please read and save lyrics and chord guitar on your phone / PC.

Nirvana - Blew || Lirik Lagu Dan Kunci Gitar Edisi Deskripsi Lagu

Tags: Deskripsi Lagu, Nirvana,
Singer : Nirvana - Blew || Lirik Lagu Dan Kunci Gitar Edisi Deskripsi Lagu
Salam Rokstars...
       =]] Lirik Lagu Dan Kunci Gitar [[=
         ™ Deskripsi Lagu
(*) Nirvana - Blew
''Dropped D'' tuning --------------------- Intro / Verse / Outro
1|----------------------------------|
2|----------------------------------|
3|----------------------------------|
4|----------------------------------| 5|-0--3--5--6--6--5--3--0--5--------|
6|-0--3--5--6--6--5--3--0--5--------|    
                                                  
1/2  Verse Riff                                          
1|----------------------------------|----------------6----|
2|----6--8--9--9--9--8--6--8--8--6--|--8p--6h--8--8-------|
3|-7--------------------------------|---------------------|
4|----------------------------------|---------------------|
5|----------------------------------|---------------------|
6|----------------------------------|---------------------|  
Oh if you...  Chorus
1|---------------------------------------------------------|
2|---------------------------------------------------------|
3|---------------------------------------------------------|
4|---------------------------------------------------------|
5|-3--5-|--5--5--3-|--3--3--5-|--5--5--3--6-|-/7-...-------|
6|-3--5-|--5--5--3-|--3--3--5-|--5--5--3--6-|-/7-...-------|
Intro: E
E
(*) If you wouldn’t mind I would like it blew
If you wouldn’t mind I would like loose
If you wouldn’t mind I would like to leave
If you wouldn’t mind I would like to breathe
F
Is there another reason for your stain
F E
Could you believe who we knew was stress and strain
E F#
Here is another word that rhymes with shame
Back to: (*)
Interlude: E
E F
Is there another reason for your stain
E F
Could you believe who we knew was stress and strain
E F#
Here is another word that rhymes with shame
F
You could anything…. You could anything….
You could anything…. You could anything….
You could anything…. You could anything….
You could anything…. You could anything…. Nirvana
==============================================================
        
       =]] Lirik Lagu Dan Kunci Gitar [[=
™ Deskripsi Lagu :
 
Album Bleach dirilis pada Juni tahun 1989 oleh Sub Pop Records di Seattle, Washington.
Kopi pertama pada 1000 di luncurkan dgn vinil putih. 2000 kopi berikutnya dgn poster.
Direkam pada Reciprocal Recording oleh Jack Endino untuk harga $606.17, dibayar ole Jason Everman.
Semua lagu ditulis dan dibuat oleh Kurt Cobain kecuali Love Buzz ditulis oleh Robby Van Leeuwen.
Anda dapat membelinya di toko kaset terdekat :D
Kurt Cobain           : Vocals, guitar
Chris Novoselic    : Bass
Chad Channing     : Drums
Jason Everman    : Guitar (didn't actually appear in this album)
Dale Crover           : Drums on Floyd The Barber, Paper Cuts and Downer
Front cover photo : by Tracy Marander.
Inner photos          : by Charles Peterson
Design                    : Lisa Orth
Execution               : Jane Higgins
Blew - keseluruhan lagu ini menyampaikan tentang tema penjeratan
Created : Misugihzun _
   =]] Lirik Lagu Dan Kunci Gitar [[=
         ™ Deskripsi Lagu

Next many more lyrics west, pop, hip-hop, clasical, tradisional, k-pop, j-pop, rock, blues, metalcore, hardcore, remix, DJ, beat, malaysia, melayu, indonesia, dangdut, underground, punk, scream, reggae, rohani, shalawat, and other song.

Share On:

That Song Lyrics and Guitar Chord from Nirvana - Blew || Lirik Lagu Dan Kunci Gitar Edisi Deskripsi Lagu

Now that you know the chords and lyrics Nirvana - Blew || Lirik Lagu Dan Kunci Gitar Edisi Deskripsi Lagu, what if you want to find lyrics and chord of another singer. Calm down, we have a lot of the lyrics song of the singer around the world.

You're reading an article Nirvana - Blew || Lirik Lagu Dan Kunci Gitar Edisi Deskripsi Lagu and this article permalink URL is https://www.biliklagu.tk/2016/02/nirvana-blew-lirik-lagu-dan-kunci-gitar.html Hopefully article this can be helpful and make you happy.