Nirvana - The Man Who Sold The World || Lirik Lagu Dan Kunci Gitar Edisi Deskripsi Lagu

Nirvana - The Man Who Sold The World || Lirik Lagu Dan Kunci Gitar Edisi Deskripsi Lagu (New Version) - Hallo brother and sister BilikLagu Indonesia, Did you enjoy your hobby and singing with a guitar? Your right to visit this site, because we share a lot of the lyrics and guitar chords of the singer around the world. What do you look for Nirvana - The Man Who Sold The World || Lirik Lagu Dan Kunci Gitar Edisi Deskripsi Lagu, I have provided the lyrics and chord guitar from scratch again until the end of the song. Please read and save lyrics and chord guitar on your phone / PC.

Nirvana - The Man Who Sold The World || Lirik Lagu Dan Kunci Gitar Edisi Deskripsi Lagu

Tags: Deskripsi Lagu, Nirvana,
Singer : Nirvana - The Man Who Sold The World || Lirik Lagu Dan Kunci Gitar Edisi Deskripsi Lagu
Salam Rockstars . . .
   =[[ Lirik Lagu Dan Kunci Guitar ]]=
    ™Deskripsi Lagu
(*) Nirvana - The Man Who Sold the World
Tuning: Eb Ab Db Gb Bb eb
hide this tab
Intro : F Dm
eb|-------------------------------------| Bb|-------------------------------------| Gb|--2-2-2-0-2h3p2-0---2-2-2-0-2h3p2-0--|
Db|-------------------------------------| Ab|-------------------------------------| Eb|-------------------------------------|
eb|---------------------------------|
Bb|---------------------------------|
Gb|--2-2-2-0-2h3p2-0--2-2-2-0-0-0-2-| Db|---------------------------------|
Ab|---------------------------------|
Eb|---------------------------------|
A We past upon the stairs
Dm Spoken walls of when
A Although I wasn´t there
F Said I was his friend
C Which came as a surprise
A I spoke into his eyes
Dm I thought you died alone
C A long, long time ago
hide this tab
Riff 1:
eb|----------------------------------------------------|
Bb|----------------------------------------------------|
Gb|-----------2-3-5------------2-3-5------------2-3-5--|
Db|-----2-3-5------------2-3-5------------2-3-5--------|
Ab|-3-5--------------3-5--------------3-5--------------|
Eb|----------------------------------------------------|
F Oh no, not me
C# F We never lost control
hide this tab
Riff 2
eb|--------------------|
Bb|--------------------|
Gb|--------------------|
Db|--------------0-2-3-|
Ab|-------0-1-3--------|
Eb|--1-3---------------|
C F Your face to face
C# A Dm With the man who sold the world
hide this tab
Introdução: F Dm
eb|-------------------------------------| Bb|-------------------------------------| Gb|--2-2-2-0-2h3p2-0---2-2-2-0-2h3p2-0--|
Db|-------------------------------------| Ab|-------------------------------------| Eb|-------------------------------------|
eb|---------------------------------|
Bb|---------------------------------|
Gb|--2-2-2-0-2h3p2-0--2-2-2-0-0-0-2-| Db|---------------------------------|
Ab|---------------------------------|
Eb|---------------------------------|
A I laughed and shook his hand
Dm Made my way become
A I searched for foreign land
F For years and years I romed
C I gazed a pazly stare
A We walked a millions hills
Dm I must have died alone
C A long, long time ago
hide this tab
Riff 1:
eb|----------------------------------------------------|
Bb|----------------------------------------------------|
Gb|-----------2-3-5------------2-3-5------------2-3-5--|
Db|-----2-3-5------------2-3-5------------2-3-5--------|
Ab|-3-5--------------3-5--------------3-5--------------|
Eb|----------------------------------------------------|
F Who knows, not me
C# F I never lost control
hide this tab
Riff 2 eb|--------------------|
Bb|--------------------|
Gb|--------------------|
Db|--------------0-2-3-|
Ab|-------0-1-3--------|
Eb|--1-3---------------|
C F Your face, to face
C# A Dm With the man who sold the world Introdução
hide this tab
Riff 1:
eb|----------------------------------------------------|
Bb|----------------------------------------------------|
Gb|-----------2-3-5------------2-3-5------------2-3-5--|
Db|-----2-3-5------------2-3-5------------2-3-5--------|
Ab|-3-5--------------3-5--------------3-5--------------|
Eb|----------------------------------------------------|
C F Who knows, not me
C# F We never lost control
hide this tab
Riff 2 eb|--------------------|
Bb|--------------------|
Gb|--------------------|
Db|--------------0-2-3-|
Ab|-------0-1-3--------|
Eb|--1-3---------------|
Introdução: F Dm
eb|-------------------------------------| Bb|-------------------------------------| Gb|--2-2-2-0-2h3p2-0---2-2-2-0-2h3p2-0--|
Db|-------------------------------------| Ab|-------------------------------------| Eb|-------------------------------------|
eb|---------------------------------|
Bb|---------------------------------|
Gb|--2-2-2-0-2h3p2-0--2-2-2-0-0-0-2-| Db|---------------------------------| Ab|---------------------------------|
Eb|---------------------------------|
Solo: ( A Dm F Dm A Dm F)
eb|-----------------|-------------------------|-----------------|
Bb|-----------------|-------------------------|-----------------| Gb|-2-2-2-0-2h3p2-0-|-2-2-2-0-2-2/10-10-9-9\--|-2-2-2-0-2h3p2-0-| Db|-----------------|-------------------------|-----------------|
Ab|-----------------|-------------------------|-----------------|
Eb|-----------------|-------------------------|-----------------|                 (7x)
eb|--------------------------------------------------|-----------------|
Bb|--------------------------------------------------|-----------------| Gb|-2-2-2-0-2-2-2/9-9--9-9-9-9--9\8--8\7--7--7/9-9-/-|-2-2-2-0-2h3p2-0-| Db|--------------------------------------------------|-----------------|
Ab|--------------------------------------------------|-----------------|
Eb|--------------------------------------------------|-----------------|
eb|----------------------------------------------|-----------------|--|
Bb|----------------------------------------------|-----------------|--| Gb|-2-2-2-0-2-2/10-10-10-10-10-10\9-9\7-7-7/9-9\-|-2-2-2-0-2h3p2-0-|2-| Db|----------------------------------------------|-----------------|--|
Ab|----------------------------------------------|-----------------|--|
Eb|----------------------------------------------|-----------------|--|
==============================================================
        =[[ Lirik Lagu Dan Kunci Gitar ]]=
Deskripsi :
Inilah lagu dari salah satu album awal David Bowie yang berjudul The Man Who Sold the World. Awalnya album ini tidak begitu populer, tapi belakangan satu persatu musisi lain memainkan lagu ini.
Buat remaja Indonesia modern angkatan saya, lagu ini kami kenal karena dimainkan oleh Nirvana dalam album MTV Unplugged in New York, sebuah album pascamangkat mereka (“pascamangkat” ini tawaran saya untuk terjemahan dari kata “posthumous” :D). Oh ya, pertama kali mendengar lagu ini, saat tidak tahu kalau asalnya dari David Bowie, saya bicara dalam hati “Jasik! Cobain iki ancen mbois, isok nggawe irama ke-ndangdhut-ndangdhutan ngene rek!”
Lirik dari lagu ini sangat misterius, karena seolah-olah seperti pertemuan seseorang dengan orang lain (sebut saja orang kedua) secara kebetulan. Si aku dalam lirik ini mengira orang kedua itu sudah mati dulu, dan dia juga mengakui tidak hadir pada satu kesempatan penting dalam kehidupan orang kedua ini.
Tapi si orang kedua masih menganggap “si aku” temannya, seperti dulu. Dia juga mengaku tidak mati, dia menyebut dirinya “orang yang menggadaikan dunia” (apa ini maksudnya?). Pertemuan insidental ini seolah menjadi titik balik kehidupan si aku, dan membuatnya menjelajah dunia. Sebenarnya, menurut banyak lirik, setelah pertemuan itu dia pulang dan “searched form and land” yang saya tidak pahami maksudnya (karena itulah saya memilih lirik alternatif yang berbunyi “searched foreign land” (yang demi meningkatkan kemisteriusan cerita saya belokkan terjemahannya jadi “negeri antah berantah,” mohon maaf :|).
Satu lagi poin tentang kemisteriusan lagu ini, yaitu dalam aspek presentasinya. Bowie menggunakan efek vokal vocoder yang membuat dia terdengar seperti robot (atau seperti Cher :D). Efek ini mengesankan adanya kesenjangan antara kenyataan dan ketidaknyataan, atau manusia dan robot, antara daging dan logam, dll. Bagaimana dengan Nirvana? Cobain tidak menggunakan efek vokal, dan bahkan lagu ini pun dimainkan secara akustik–kecuali dengan gitar yang memakai distorsi separuh untuk intro dan interlude itu. Tapi, tentu saja, pasca mangkatnya Hameng kurt Cobain semua yang dinyanyikan Cobain dalam konser MTV Unplugged tahun 1993 itu menjadi misterius.
Apalagi lagu ini, yang isinya memang sudah misterius dan mengandung “mati sendiri”!
Kami berpapasan di tangga,
dan membincangkan masa lalu
Meskipun ketika itu aku tidak hadir,
katanya aku masih temannya
aku sempat kaget. Aku beranikan bilang
Kupikir kamu mati sendiri, dulu sekali
Oh nggak, bukan aku itu
Aku nggak pernah lepas kendali
Kamu sedang berbicara dengan
Orang yang menggadaikan dunia.
Aku ngakak dan menjabat tangannya,
kemudian langsung pulang
Aku mencari negeri antah berantah,
bertahun-tahun aku mengembara
Aku menatap kosong jutaan mata di sini
Kita pasti telah mati sendiri, dulu sekali
Siapa tahu? Tentu bukan aku
Kita nggak pernah lepas kendali
Kamu sedang berbicara dengan |
Orang yang menggadaikan dunia.
Created : Misugihzun _
      =]] Lirik Lagu Dan Kunci Gitar [[=
      Deskripsi Lagu

Next many more lyrics west, pop, hip-hop, clasical, tradisional, k-pop, j-pop, rock, blues, metalcore, hardcore, remix, DJ, beat, malaysia, melayu, indonesia, dangdut, underground, punk, scream, reggae, rohani, shalawat, and other song.

Share On:

That Song Lyrics and Guitar Chord from Nirvana - The Man Who Sold The World || Lirik Lagu Dan Kunci Gitar Edisi Deskripsi Lagu

Now that you know the chords and lyrics Nirvana - The Man Who Sold The World || Lirik Lagu Dan Kunci Gitar Edisi Deskripsi Lagu, what if you want to find lyrics and chord of another singer. Calm down, we have a lot of the lyrics song of the singer around the world.

You're reading an article Nirvana - The Man Who Sold The World || Lirik Lagu Dan Kunci Gitar Edisi Deskripsi Lagu and this article permalink URL is https://www.biliklagu.tk/2016/02/nirvana-man-who-sold-world-lirik-lagu.html Hopefully article this can be helpful and make you happy.