Blink182 - What Went Wrong || Kumpulan Lirik Lagu Dan Kunci Gitar Deskripsi Lagu • Rockstars

Blink182 - What Went Wrong || Kumpulan Lirik Lagu Dan Kunci Gitar Deskripsi Lagu • Rockstars (New Version) - Hallo brother and sister BilikLagu Indonesia, Did you enjoy your hobby and singing with a guitar? Your right to visit this site, because we share a lot of the lyrics and guitar chords of the singer around the world. What do you look for Blink182 - What Went Wrong || Kumpulan Lirik Lagu Dan Kunci Gitar Deskripsi Lagu • Rockstars, I have provided the lyrics and chord guitar from scratch again until the end of the song. Please read and save lyrics and chord guitar on your phone / PC.

Blink182 - What Went Wrong || Kumpulan Lirik Lagu Dan Kunci Gitar Deskripsi Lagu • Rockstars

Tags: Blink182, Chord, Deskripsi Lagu, lyrics,
Singer : Blink182 - What Went Wrong || Kumpulan Lirik Lagu Dan Kunci Gitar Deskripsi Lagu • Rockstars
www.music-rockstars.tk

Salam Rockstars . . .

=]] Kumpulan Lirik Lagu Dan Kunci Gitar Deskripsi Lagu [[=

• Blink182 - What Went Wrong

e|----------------------------------------------------------------|
B|----------------------------------------------------------------|
G|----------4---2---------------4---2-----------------------------|
D|------2-------------------2-------------------------------------|
A|----------------------------------------------------------------|
E|----------------------------------------------------------------|

A F# D (2x)
A F# E
I'm sick of always hearing all those sad songs on
D
the radio
A F# E
All day it is there to remind an oversensitive guy
D that he is all alone, yeah.
A F# E
I hate our favorite restaurant, our favorite movie,
D
our favorite show.
A F# E
We would stay up all through the night, we would
D
laugh and get high - never answer the phone.
A G# F# E
I can't forgive, can't forget, can't give in
A
what went wrong?
G# F#
cause you said this was right
E
you fucked up my life.
A F# E
I`m sick of always hearing sappy love songs on the
D
radio
A F#
This placeits fucking cursed and its plagued and I
E
can never escape when my heart it
D
explodes
A G# F# E
I can't forgive, can't forget, can't give in - what
A
went wrong?
G# F#
cause you said this was right
E
you fucked up my life.
hide this tab

e|-----------0------|------------------|------------0------|--------------------
B|------------------|-----------2------|-------------------|--------2-----------
G|-------2-------2--|-------2-------2--|-------2--------2--|-----2-----2--------
D|------------------|------------------|-------------------|--------------------
A|------------------|------------------|-------------------|--------------------
E|---2--------------|---2--------------|--2----------------|--2-----------------
e|----------0----|-------------------|------------0----|------------------------
B|---------------|-------------2-----|-----------------|--------------2---------
G|-------2-----2-|---------2------2--|--------2------2-|---------2---------2---- D|---0-----------|-----0-------------|----0------------|----0-------------------
A|---------------|-------------------|-----------------|------------------------
E|---------------|-------------------|-----------------|------------------------
e|------------0-----|----------------------|-----------------0-------|----------
B|------------------|-------------2--------|-------------------------|----------
G|-------2-------2--|--------2---------2---|------------2--------2---|-------2--
D|------------------|----------------------|-------------------------|----------
A|---0--------------|----0-----------------|-------2-----------------|--2-------
E|------------------|----------------------|-------------------------|----------
e|---------------------------------------------------|
B|-----------2-----------2-----------2------------2--|
G|-------2-----------2-----------2------------2------|
D|---0-----------0-----------0-----------0-----------|
A|---------------------------------------------------|
E|---------------------------------------------------|

Intro - A B D
A F# D A
I'm kicking out fiercely at the world around me,
F# D
what went wrong?
A F# D A
I'm kicking out fiercely at the world around me,
F# D
what went wrong?
A F# D A
I'm kicking out fiercely at the world around me,
F# D
what went wrong?
A F# D A
I'm kicking out fiercely at the world around me,
F# D
what went wrong?
A
I'm kicking.

===============================

=]] Kumpulan Lirik Lagu Dan Kunci Gitar [[=

• Deskripsi Lagu : What Went Wrong
"Dalam lagu ini kita bermain akustik. Gue suka lagu ini. Sangat sedih, dan bagus, dan ada sedikit sentuhan klarinet di sini. Ada lagu pembuka film 'Angus' dalam lagu ini. Lagu ini terinspirasi oleh lagu tersebut. Bandnya bernama 'Love Spit Love'. Dia adalah cowok dari band tahun 80-an yang bernama Physcadellic Furs." (Tom)



Terimakasih Telah Berkunjung Tinggalkan KOMENTAR Anda Dan SHARE Ke Sosial Media Dan Follow Jika Artikal Ini Bagus >>>>> WARNING !!! <<<<< • Privacy Policy [UUI : 1.8.2] DI LARANG KERAS MENGCOPY PASTE ATAU MENYALIN HAK CIPTA ARTIKEL INI. KECUALI CANTUMKAN SUMBER ARTIKEL INI.

Next many more lyrics west, pop, hip-hop, clasical, tradisional, k-pop, j-pop, rock, blues, metalcore, hardcore, remix, DJ, beat, malaysia, melayu, indonesia, dangdut, underground, punk, scream, reggae, rohani, shalawat, and other song.

Share On:

That Song Lyrics and Guitar Chord from Blink182 - What Went Wrong || Kumpulan Lirik Lagu Dan Kunci Gitar Deskripsi Lagu • Rockstars

Now that you know the chords and lyrics Blink182 - What Went Wrong || Kumpulan Lirik Lagu Dan Kunci Gitar Deskripsi Lagu • Rockstars, what if you want to find lyrics and chord of another singer. Calm down, we have a lot of the lyrics song of the singer around the world.

You're reading an article Blink182 - What Went Wrong || Kumpulan Lirik Lagu Dan Kunci Gitar Deskripsi Lagu • Rockstars and this article permalink URL is https://www.biliklagu.tk/2016/09/blink182-what-went-wrong-kumpulan-lirik.html Hopefully article this can be helpful and make you happy.