Guns N Roses - Since I Dont Ave You || Kumpulan Liik Lagu Dan Kunci Gitar Deskripsi Lagu • Rockstars

Guns N Roses - Since I Dont Ave You || Kumpulan Liik Lagu Dan Kunci Gitar Deskripsi Lagu • Rockstars (New Version) - Hallo brother and sister BilikLagu Indonesia, Did you enjoy your hobby and singing with a guitar? Your right to visit this site, because we share a lot of the lyrics and guitar chords of the singer around the world. What do you look for Guns N Roses - Since I Dont Ave You || Kumpulan Liik Lagu Dan Kunci Gitar Deskripsi Lagu • Rockstars , I have provided the lyrics and chord guitar from scratch again until the end of the song. Please read and save lyrics and chord guitar on your phone / PC.

Guns N Roses - Since I Dont Ave You || Kumpulan Liik Lagu Dan Kunci Gitar Deskripsi Lagu • Rockstars

Tags: Deskripsi Lagu, Guns N Roses,
Singer : Guns N Roses - Since I Dont Ave You || Kumpulan Liik Lagu Dan Kunci Gitar Deskripsi Lagu • Rockstars
www.music-rockstars.tk

Salam Rockstars . . .

=]] Kumpulan Liik Lagu Dan Kunci Gitar Deskripsi Lagu [[=

Guns N Roses - Since I Dont Have You

Chords    G  Am Cm D  Em

E|-3--0--x--2--0-|
B|-0--1--2--3--0-|
G|-0--2--0--2--0-|
D|-0--2--2--0--2-|
A|-2--0--3--x--2-|
E|-3--x--x--x--0-|

Intro:
e|---------------------------------------------------------
B|------13b15---10br------10-----10h11p10------------------ G|--------------------12-------------------8-7-------------
D|--12-----------------------------------------------------
A|---------------------------------------------------------
E|--------------------------------------------------------- then
e|----14br--14--12h14p12-10--------------------------------
B|----------------------------10br----10--10h11p10---------
g|---------------------------------12---------------10-8---
D|---------------------------------------------------------
A|---------------------------------------------------------
E|---------------------------------------------------------

e|---------------------------------------|
B|---------------------------------------|
G|--/9-11-9--11--14--11--9---7------7h9--|
D|-----------------------------9---------|
A|---------------------------------------|
E|---------------------------------------|
G           Cm         D
I don't have plans and schemes,    
G          Cm          D
And I don't have hopes and dreams.
G          Cm
I don't have anything,
Am            D
Since I don't have you.    
G          Cm     D
And I don't have fond desires,    
G          Cm      D
and I don't have happy hours.
G          Cm
I don't have anything,
Am                 D
Since I don't have you.
D                D
Happiness, and I guess,
Am            G
I never will again.
Am
When you walked out on me,
G
In walked ol' misery,
Am                      D
And he's been here since then.
(Yeah, we're f****d!)

Solo:
e|-------------------------------------|-------------------
B|-------------------------------------|-------------------
G|-----19^-----------------------------|-----19^^----------
D|---------21b--19-21--19h21p19p17\15~-|-----------21b--19-
A|--17---------------------------------|-17----------------
E|-------------------------------------|-------------------

e|-------------------|-------------------------------------
B|-------------------|---19^^--19--17h19p17\15~------------
G|-------------------|---------------------------17--15--19
D|--19h21p19p17\15~--|-------------------------------------
A|-------------------|-------------------------------------

Chords    G  Am Cm D  Em

E|-3--0--x--2--0-|
B|-0--1--2--3--0-|
G|-0--2--0--2--0-|
D|-0--2--2--0--2-|
A|-2--0--3--x--2-|
E|-3--x--x--x--0-|

Intro:
e|---------------------------------------------------------|
B|------13b15---10br------10-----10h11p10------------------|
G|--------------------12-------------------8-7-------------|  x2
D|--12-----------------------------------------------------|
A|---------------------------------------------------------|
E|---------------------------------------------------------| then

e|----14br--14--12h14p12-10--------------------------------|
B|----------------------------10br----10--10h11p10---------|
g|---------------------------------12---------------10-8---|
D|---------------------------------------------------------|
A|---------------------------------------------------------|
E|---------------------------------------------------------|

e|---------------------------------------|
B|---------------------------------------|
G|--/9-11-9--11--14--11--9---7------7h9--|
D|-----------------------------9---------|
A|---------------------------------------|
E|---------------------------------------|

G           Cm         D
I don't have plans and schemes,    
G          Cm          D
And I don't have hopes and dreams.
G          Cm
I don't have anything,
Am            D
Since I don't have you.    
G          Cm     D
And I don't have fond desires,    
G          Cm      D
and I don't have happy hours.
G          Cm
I don't have anything,
Am                 D
Since I don't have you.
D                D
Happiness, and I guess,
Am            G
I never will again.
Am
When you walked out on me,
G
In walked ol' misery,
Am                      D
And he's been here since then.
(Yeah, we're f****d!)

Solo:

e|-------------------------------------|--------------------------|
B|-------------------------------------|--------------------------|
G|-----19^-----------------------------|-----19^^-----------------|
D|---------21b--19-21--19h21p19p17\15~-|-----------21b--19-21-----|
A|--17---------------------------------|-17-----------------------|
E|-------------------------------------|--------------------------|

e|-------------------|--------------------------------------------|
B|-------------------|---19^^--19--17h19p17\15~-------------------|
G|-------------------|---------------------------17--15--19^^-----|
D|--19h21p19p17\15~--|--------------------------------------------|
A|-------------------|--------------------------------------------|
E|-------------------|--------------------------------------------|
e|-------------------|--------------------------------------------|
B|-------------------|--------------------------------------------|
G|--17h19p17p15\13~--|--------------------------------------------|
D|-------------------|----15--h17p15---15--17/19--21-21-21--------|
A|-------------------|--------------------------------------------|
E|-------------------|--------------------------------------------|

e|----------------------------------------------------------------|
B|----------------------------------------------------------------|
G|----------------------------------------------------------------|
D|---19-19-19---17b--15-------------------------------------------|
A|----------------------19--17------------------------------------|
E|----------------------------------------------------------------|

(Rhythym Guitar plays G, Cm, D x2 G, Cm, Am, D In background)

G          Cm        D
I don't have love to share,    
G           Cm       D
And I don't have one who cares.
G          Cm
I don't have anything,
Am                 D
Since I don't have you.

G   Em  Am  D
You You You Naaahaa
G   Em  Am  D
You You You naaahaa

===============================

=]] Kumpulan Liik Lagu Dan Kunci Gitar [[=

• Deskripsi Lagu : Since I Dont Have You

adalah lagu yang ditulis dan disusun oleh Jackie Taylor, James Beaumont, Janet Vogel, Joseph Rock, Joe VanScharnen, Lennie Martin, dan Wally Lester. Itu satu 1958 hit untuk kelompok doo-wop yang Skyliners di Billboard Hot 100. Negara penyanyi musik Ronnie Milsap memiliki hit dengan lagu pada tahun 1991. Guns N 'Roses juga memiliki beberapa keberhasilan pada tahun 1994 dengan cover sepuluh hit top mereka di UK Singles Chart.

The Skyliners versi Sunting

latar belakang Sunting
Diambil dari album self-titled mereka dan dirilis pada akhir tahun 1958, single mencapai nomor 12 di Billboard Hot 100 chart dan nomor 7 di Cash Box Top 100. [1] Itu juga lima hit teratas di chart 1959 R & B. Saat itu disorot oleh vokal vokalis Jimmy Beaumont yang kuat, dan counterpoint antara falsetto dan soprano Janet Vogel, pada chorus terakhirnya.
Sebagai bukti umur panjang, sering diputar di radio; lagu itu ditampilkan dalam film American Graffiti, The Adventures of Buckaroo Banzai, Lethal Weapon 2, Shag dan Mischief, dan acara televisi seperti Happy Days.



Terimakasih Telah Berkunjung Tinggalkan KOMENTAR Anda Dan SHARE Ke Sosial Media Dan Follow Jika Artikel Ini Bagus >>>>> WARNING !!! <<<<< • Privacy Policy [UUI : 1.8.2] DI LARANG KERAS MENGCOPY PASTE ATAU MENYALIN HAK CIPTA ARTIKEL INI. KECUALI CANTUMKAN SUMBER ARTIKEL INI.

Next many more lyrics west, pop, hip-hop, clasical, tradisional, k-pop, j-pop, rock, blues, metalcore, hardcore, remix, DJ, beat, malaysia, melayu, indonesia, dangdut, underground, punk, scream, reggae, rohani, shalawat, and other song.

Share On:

That Song Lyrics and Guitar Chord from Guns N Roses - Since I Dont Ave You || Kumpulan Liik Lagu Dan Kunci Gitar Deskripsi Lagu • Rockstars

Now that you know the chords and lyrics Guns N Roses - Since I Dont Ave You || Kumpulan Liik Lagu Dan Kunci Gitar Deskripsi Lagu • Rockstars , what if you want to find lyrics and chord of another singer. Calm down, we have a lot of the lyrics song of the singer around the world.

You're reading an article Guns N Roses - Since I Dont Ave You || Kumpulan Liik Lagu Dan Kunci Gitar Deskripsi Lagu • Rockstars and this article permalink URL is https://www.biliklagu.tk/2016/09/guns-n-roses-since-i-dont-ave-you.html Hopefully article this can be helpful and make you happy.