Avenged Sevenfold - Forgotten Faces || Kumpulan Lirik Lagu Dan Kunci Gitar Deskripsi Lagu • Rockstars

Avenged Sevenfold - Forgotten Faces || Kumpulan Lirik Lagu Dan Kunci Gitar Deskripsi Lagu • Rockstars (New Version) - Hallo brother and sister BilikLagu Indonesia, Did you enjoy your hobby and singing with a guitar? Your right to visit this site, because we share a lot of the lyrics and guitar chords of the singer around the world. What do you look for Avenged Sevenfold - Forgotten Faces || Kumpulan Lirik Lagu Dan Kunci Gitar Deskripsi Lagu • Rockstars, I have provided the lyrics and chord guitar from scratch again until the end of the song. Please read and save lyrics and chord guitar on your phone / PC.

Avenged Sevenfold - Forgotten Faces || Kumpulan Lirik Lagu Dan Kunci Gitar Deskripsi Lagu • Rockstars

Tags: Avenged Sevenfold, Deskripsi Lagu,
Singer : Avenged Sevenfold - Forgotten Faces || Kumpulan Lirik Lagu Dan Kunci Gitar Deskripsi Lagu • Rockstars
Avenged Sevenfold - Forgotten Faces || www.music-rockstars.tk

Salam Rockstars . . .

=]] Kumpulan Lirik Lagu Dan Kunci Gitar Deskripsi Lagu [[=

• Avenged Sevenfold - Forgotten Faces

• TAB GUITAR
Drop D Tuning *-Mute h-Hammer-on /-Slide Up \-Slide Down Intro /

Verse
1--------------------------------------------------------|
2--------------------------------------------------------|
3--------------------------------------------------------|
4--0-0-0-0-----0-0-0-0-------0-0-0-0-----0-0-0-0---------|
5--0-0-0-0-5~--0-0-0-0-5h6~--0-0-0-0-3~--0-0-0-0-6h8-8~--| 6--0-0-0-0-0~--0-0-0-0-------0-0-0-0-----0-0-0-0---------|   

* * * *     * * * *       * * * *     * * * *

1--------------------------------------------------------------|
2--------------------------------------------------------------|
3--------------------------------------------------------------|
4--7-7--7-7-7-5-/-7-\\-5-5-5-5-5-5--8-8--10-10-10-10-10-/-12---|
5--5-5--5-5-5-3-/-5-\\-3-3-3-3-3-3--6-6--8--8--8--8--8--/-10---|
6--0-0---------------------------------------------------------|

1-------------------------|
2-------------------------|
3--(slow)-----------------| 4--7-\-3-\-0----1--3--5---| 5--5-\-1-\-0----1--3--5---| 6----------0----1--3--5---|

1-------------------------------------------------------------|
2-------------------------------------------------------------|
3-------------------------------------------------------------|
4--7-7--7-7-7-5-/-7--5-5-5-5-5-5--8-8--10-10-10-10-10-/-12----|
5--5-5--5-5-5-3-/-5--3-3-3-3-3-3--6-6--8--8--8--8--8--/-10----|
6--0-0--------------------------------------------------------|

1-------------------------------------------------------------------------|
2-------------------------------------------------------------------------|
3-------------------------------------------------------------------------|
4--7-9-10-----10-9------------------------7-9-10-----10-9--333--7--3--5--7--|
5--5-7-8--10--8--7--555--4-5-4-7--5-4-0---5-7-8--10--8--7--333--7--3--5--7--|
6---------10--------555--------------------------10--------333--7--3--5--7--|   

                              *  *  *  *

1-----------------------------------------|------|
2-----------------------------------------|------|
3-----------------------------------------|------|
4--0000-0--5555-5--3333-3--88-8--1010-10--|--0~--|
5--0000-0--5555-5--3333-3--88-8--1010-10--|--0~--|
6--0000-0--5555-5--3333-3--88-8--1010-10--|--0~--|   

****    ****    ****    **    * *

1--------------------------------|
2--------------------------------|
3--------------------------------|
4------------7-7-77--10-10-1010--| 5------------5-5-55--8--8--8-8---|
6------------0-0-00--------------|
1---------------------------------------------------------------------------|
2---------------------------------------------------------------------------|
3------------------------------------------------3333333------------3333333-|
4-------------------1010101010101010101010101010-3333333-0-0--3-3-3-3333333-|
5-------------------8-8-8-8-8-8-8-8-8-8-8-8-8-8--1111111-0-0--5-5-5-1111111-|
6--------------------------------------------------------0-0----------------|     

               * * * * * * * * * * * * * * "Solo"
1---------------------|
2----------8-----/10--|
3--7--10-9---10-------|
4---------------------|
5---------------------|
6---------------------|

Behind "Solo"

1---------------------|
2---------------------|
3---------------------|
4--0--10--8-0-8-------|
5--0--10--8-0-8-------|
6--0--10--8-0-8-------|            

*

1---------------------|-----------------------------------|
2---------------------|-----------------------------------|
3---------------------|-----------------------------------|
4--/7-----/7----------|-7--------777-77--7--------777-77--|
5--/5--5--/5--5-------|-5-5--555-555-55--5-5--555-555-55--|
6------0------0-------|---0--555-----------0--555---------|                             

================================

=]] Kumpulan Lirik Lagu Dan Kunci Gitar [[=

• Deskripsi Lagu : Forgotten Faces

Wajah terlupakan. Hilang dalam ranah kemarin. Dikeringkan dengan kebingungan. Di mana itu semua pergi? Melihat ke masa lalu, melihat ke wajah mereka.

Tidak pernah, pikiran yang kacau waktu.
Tapi sekarang mereka semua pergi dan semua yang tersisa adalah menghadapi gambaran kosong ini. Sembilan puluh persen, tidak ada yang dilakukan, tidak ada yang dilakukan, meluncur melalui kehidupan tidak merebut hari.

Tidak ada yang pernah menyadari bahwa mereka sudah mati. Pada saat kamu menyadari, kamu akan mati juga. Tanpa kesempatan lain untuk menyelamatkan dunia, hal-hal ini mereka pergi, pergi kamu, lupa. Sekarang wajah kamu di bingkai foto saya.

Itu hilang, selamanya. Tepat di depan mataku. Dan hanya ketika saya pikir saya membuat cahaya hal Ini menyelinap pergi, ke dalam kegelapan. Hidupku berlalu sekarang saya melihat. apa hanya dunia ini tidak berlaku untuk saya. Itu semakin sulit, sulit untuk bernapas. saya keluar dari waktu apa ini apa artinya ini?

Nah itu apa artinya. Itu artinya, kamu dan saya mencoba untuk bernapas. Kamu sekarang, menyadari. Kehidupan kamu, berlalu. Sekarang saya. menyadari. Hidupku, matiku

Forgotten Faces Lagu ini menceritakan bagaimana dirimu menyia nyiakan hidup mu, dan menyesal setelah mati …



Saya Misugihzun Terimakasih Kepada Anda Telah Berkunjung, Tinggalkan KOMENTAR Anda, Dan SHARE Ke Sosial Media Jika Artikel Ini Bermanfaat, Dan FOLLOW Agar Tau Informasi Dari Band-Band Selanjutnya. WARNING !!! … • Privacy Policy [UUI : 1.8.2] DI LARANG KERAS MENG COPY PASTE ATAU MENYALIN HAK CIPTA ARTIKEL INI. KECUALI CANTUMKAN SUMBER URL ARTIKEL INI.

Next many more lyrics west, pop, hip-hop, clasical, tradisional, k-pop, j-pop, rock, blues, metalcore, hardcore, remix, DJ, beat, malaysia, melayu, indonesia, dangdut, underground, punk, scream, reggae, rohani, shalawat, and other song.

Share On:

That Song Lyrics and Guitar Chord from Avenged Sevenfold - Forgotten Faces || Kumpulan Lirik Lagu Dan Kunci Gitar Deskripsi Lagu • Rockstars

Now that you know the chords and lyrics Avenged Sevenfold - Forgotten Faces || Kumpulan Lirik Lagu Dan Kunci Gitar Deskripsi Lagu • Rockstars, what if you want to find lyrics and chord of another singer. Calm down, we have a lot of the lyrics song of the singer around the world.

You're reading an article Avenged Sevenfold - Forgotten Faces || Kumpulan Lirik Lagu Dan Kunci Gitar Deskripsi Lagu • Rockstars and this article permalink URL is https://www.biliklagu.tk/2016/11/avenged-sevenfold-forgotten-faces.html Hopefully article this can be helpful and make you happy.