Avenged Sevenfold - Lips Of Deceit || Kumpulan Lirik Lagu Dan Kunci Gitar Deskripsi Lagu • Rockstars

Avenged Sevenfold - Lips Of Deceit || Kumpulan Lirik Lagu Dan Kunci Gitar Deskripsi Lagu • Rockstars (New Version) - Hallo brother and sister BilikLagu Indonesia, Did you enjoy your hobby and singing with a guitar? Your right to visit this site, because we share a lot of the lyrics and guitar chords of the singer around the world. What do you look for Avenged Sevenfold - Lips Of Deceit || Kumpulan Lirik Lagu Dan Kunci Gitar Deskripsi Lagu • Rockstars, I have provided the lyrics and chord guitar from scratch again until the end of the song. Please read and save lyrics and chord guitar on your phone / PC.

Avenged Sevenfold - Lips Of Deceit || Kumpulan Lirik Lagu Dan Kunci Gitar Deskripsi Lagu • Rockstars

Tags: Avenged Sevenfold, Deskripsi Lagu,
Singer : Avenged Sevenfold - Lips Of Deceit || Kumpulan Lirik Lagu Dan Kunci Gitar Deskripsi Lagu • Rockstars
Avenged Sevenfold - Lips Of Deceit || www.music-rockstars.tk

Salam Rockstars . . .

=]] Kumpulan Lirik Lagu Dan Kunci Gitar Deskripsi Lagu [[=

• Avenged Sevenfold - Lips Of Deceit

• Tab Guitar
Tuning: drop D (DADGBe) ~ let ring x palm mute h Hammer on / slide

|---------------------------------------------------------|
|---------------------------------------------------------| |-2/7-7-9h10-9-7/3-9-10-9-7/10-12-14-12-10/5h7-9-7-5/7----|
|-2/7-7-7--7-7-7/3-7--7-7-7/10-10-10-10-10/5-5-5-5-5/7----|
|---------------------------------------------------------|
|---------------------------------------------------------|

at 0:39 end like this 0:39-0:46 listen to the song for the>>>>>>>>>>

2 some are palm mute and some are not  2                                      0 Gtr I
|-------------|
|-------------|
|--5/2----2---|
|--5/2----2---|
|---------0---|
|-------------|

gtr II

|------------|
|------------|
|--6-2-5-9---|
|--x-x-x-x---|
|--4-0-3-7---|
|------------|

|-------------------------------------------------------|
|-------------------------------------------------------| |-2/7-9-10-9-7/3-9-10-9-7/10-12-14-12-10/5-7-9-7-5/7----|
|-2/7-7--7-7-7/3-7--7-7-7/10-10-10-10-10/5-5-5-5-5/7----|
|-------------------------------------------------------|
|-------------------------------------------------------|

|-------------|
|-------------|
|--5/2----2---|
|--5/2----2---|
|---------0---|
|-------------|

|----------------|
|----------------|
|--2~------------|
|--2~------------|
|--0~------------|
|----------------|

do it all twice

|----------------------------------|
|----------------------------------|
|--2-2-2-5-3-3-3-2-0-0-5-0-2-2-2---|
|---0-0-0---0-0-0---0-0----0-0-0---|
|----------------------------------|
|----------------------------------|       

                  (last 10 harmonic)

|-----------------------------------------|
|------------------------------8-10-------|
|-2-0-2-2-2--5-7-7-7-10-9-9-10------------|
|------0-0-0----0-0-0----0-0--------------|
|-----------------------------------------|
|-----------------------------------------|

(last 10 harmonic)

|-----------------------------------------------------------|-------|
|-----------------------------------------------------------|-8(10)-|
|-2-2-2-5-3-3-3-2-0-0-5-0-2-2-2-2-0-------5-7-7-7-10-9-9-10-|-------|
|-----------------------------------3-3-3-------------------|-------|
|-----------------------------------------------------------|-------|
|-----------------------------------------------------------|-------|

(do this at the end of that ^)

|---------------------------------------------------|
|-------------8?8h10-8------------------------------|
|---10-9-9-10----------10-12-10-9-7-9-10-9-7-5-7~---|
|----------------------------------------------0~---|
|---------------------------------------------------|
|---------------------------------------------------|

no guitar 2:10-2:29(twice)

|--------------------------------------|
|--------------------------------------|
|--9/10-10-10-10--9-9-9-9/10-10-10-10--|
|--x-x---x--x--x--x-x-x-x-x---x--x--x--|
|--7/8---8--8--8--7-7-7-7/8---8--8--8--|
|--------------------------------------|
|-------------------------------------------------|
|-------------------------------------------------|
|-9-9-9-9/-12-12-12-12-12-12/14-14-14-10-10-10-10-|
|-x-x-x-x---x--x--x?x---x--x--x?-x--x--x?-x--x--x-|
|-7-7-7-7/-10-10-10-10-10-10/12-12-12--8--8--8?-8-|
|-------------------------------------------------|
|--------------------------------------|
|--------------------------------------|
|--9/10-10-10-10--9-9-9-9/10-10-10-10--|
|--x-x---x--x--x--x-x-x-x-x---x--x--x--|
|--7/8---8--8--8--7-7-7-7/8---8--8--8--|
|--------------------------------------|
|-------------------------------------------|
|-------------------------------------------|
|-9-9-9--5-5-5-5-5-5-5----------------------|
|-x-x-x--x-x-x-x-x-x-x--5555-3333-----------|
|-7-7-7--3-3-3-3-3-3-3--5555-3333-----------|
|-----------------------5555-3333-----------| 

|--------------------|
|--------------------|
|--------------------|
|--5--0000-0-0-0-----|
|--5--0000-0-0-0-----|
|--5--0000-0-0-0-----|

|-----------------------------------------|
|-----------------------------------------|
|--------5/3------3/5------5/7?-7/--------|
|-0-000?-5/3-000?-3/5-000?-5/7?-7/--------|
|-0-000?-3/1-000?-1/3-000?-3/5?-5/--------|
|-0-000------000------000-----------------|    

xxx      xxx      xxx

|-------------------------------------------|
|-------------------------------------------|
|---7-77-10-10-10-7-77-10-10-10--5-5-5-5----|
|---7-77--7--7--7-7-77--7--7--7--7-7-7-7----|
|-------------------------------------------|
|-------------------------------------------|    

  xx     x  x   xx     x  x

|-------------|
|-------------|
|-------------|
|-0~----------|
|-0~----------|
|-0~----------|

2:57-3:19

|---------------------------------------------------|
|---------------------------------------------------|
|--2222222-3333333-5555555-7777777------------------|
|--2222222-3333333-5555555-7777777------------------|
|--0000000-1111111-3333333-5555555------------------|
|---------------------------------------------------|

|------------------------------|
|------------------------------|
|---7-7-10-10--7-7-7-5-777-----|
|---7-7--7--7--7-7-7-7-777-----|
|------------------------------|
|------------------------------|     

x     x  x x

Gtr I      Gtr II

|---------|----------|
|---------|----------|
|--7-8-7--|----------|
|--7-7-7--|--7-8-7---|
|---------|--7-8-7---|
|---------|--7-8-7---|

|---------------------|
|---------------------|
|--7------------------|
|--7-7-6--------------|
|--5-7-6--------------|
|----7-6---0005323----|

|---------------------|
|---------------------|
|--7-8-7--------------|    
|--7-8-7--------------|    the order?
|--5-6-5--------------|
|---------------------|

|---------------------|
|---------------------|
|--7-8-7---8----------|
|--7-8-7---x----------|
|--5-6-5---6----------|
|---------------------|

|---------------------|
|---------------------|
|--7-8-7--------------|
|--7-8-7---00---------|
|--5-6-5---00---------|
|----------00---------|           

xx

|---------------------------------------------------|
|---------------------------------------------------|
|--2222222-----------------------3333333--2222222---|
|--2222222--0000-0-0--0000-0-0---3333333--2222222---|
|--0000000--0000-0-0--0000-0-0---1111111--0000000---|
|-----------0000-0-0--0000-0-0----------------------|            

xxxx x x  xxxx x x

|---------------------------------------------------|
|---------------------------------------------------|
|--2222222-3333333-5555555-7777777------------------|
|--2222222-3333333-5555555-7777777------------------|
|--0000000-1111111-3333333-5555555------------------|
|---------------------------------------------------|

|------|
|------|
|--7---|
|--7---| don't let ring
|--5---|
|------|

===============================

=]] Kumpulan Lirik Lagu Dan Kunci Gitar [[=

• Deskripsi Lagu : Lips Of Deceit

Avenged Sevenfold atau lebih dikenal sebagai A7X atau Sevenfold, didirikan oleh Zacky Vengeance (gitar) dan M. Shadows (vokal), ketika mereka masih SMA di Orange County. Kemudian mereka mengajak The Reverend Tholomew Plague (drum), dan mereka merilis demo pada tahun 1999

Perilisan demo awal pada tahun 1999, sehingga ditetapkan sebagai tahun lahirnya Avenged Sevenfold. Pada tahun 2002 mereka kembali merilis Sounding The Seventh Trumpet yang sebelumnya pernah dirilis pada tahun 2001, dimulai dengan Masuknya Synyster Gates (gitar) pada trek prtama pada album Sounding the Sevent Trumpet. Salasatu dari Album tersebut ialah lagu Lips Of Deceit (Bibir yang penuh dengan kedustaan) lagu yang menceritakan tentang kebohongan manusia.



Saya Misugihzun Terimakasih Kepada Anda Telah Berkunjung, Tinggalkan KOMENTAR Anda, Dan SHARE Ke Sosial Media Jika Artikel Ini Bermanfaat, Dan FOLLOW Agar Tau Informasi Dari Band-Band Selanjutnya. WARNING !!! … • Privacy Policy [UUI : 1.8.2] DI LARANG KERAS MENG COPY PASTE ATAU MENYALIN HAK CIPTA ARTIKEL INI. KECUALI CANTUMKAN SUMBER URL ARTIKEL INI.

Next many more lyrics west, pop, hip-hop, clasical, tradisional, k-pop, j-pop, rock, blues, metalcore, hardcore, remix, DJ, beat, malaysia, melayu, indonesia, dangdut, underground, punk, scream, reggae, rohani, shalawat, and other song.

Share On:

That Song Lyrics and Guitar Chord from Avenged Sevenfold - Lips Of Deceit || Kumpulan Lirik Lagu Dan Kunci Gitar Deskripsi Lagu • Rockstars

Now that you know the chords and lyrics Avenged Sevenfold - Lips Of Deceit || Kumpulan Lirik Lagu Dan Kunci Gitar Deskripsi Lagu • Rockstars, what if you want to find lyrics and chord of another singer. Calm down, we have a lot of the lyrics song of the singer around the world.

You're reading an article Avenged Sevenfold - Lips Of Deceit || Kumpulan Lirik Lagu Dan Kunci Gitar Deskripsi Lagu • Rockstars and this article permalink URL is https://www.biliklagu.tk/2016/11/avenged-sevenfold-lips-of-deceit.html Hopefully article this can be helpful and make you happy.