Avenged Sevenfold - Turn The Other Way || Kumpulan Lirik Lagu Dan Kunci Gitar Deskripsi Lagu • Rockstars

Avenged Sevenfold - Turn The Other Way || Kumpulan Lirik Lagu Dan Kunci Gitar Deskripsi Lagu • Rockstars (New Version) - Hallo brother and sister BilikLagu Indonesia, Did you enjoy your hobby and singing with a guitar? Your right to visit this site, because we share a lot of the lyrics and guitar chords of the singer around the world. What do you look for Avenged Sevenfold - Turn The Other Way || Kumpulan Lirik Lagu Dan Kunci Gitar Deskripsi Lagu • Rockstars, I have provided the lyrics and chord guitar from scratch again until the end of the song. Please read and save lyrics and chord guitar on your phone / PC.

Avenged Sevenfold - Turn The Other Way || Kumpulan Lirik Lagu Dan Kunci Gitar Deskripsi Lagu • Rockstars

Tags: Avenged Sevenfold, Deskripsi Lagu,
Singer : Avenged Sevenfold - Turn The Other Way || Kumpulan Lirik Lagu Dan Kunci Gitar Deskripsi Lagu • Rockstars
Avenged Sevenfold - Turn the Other Way || www.music-rockstars.tk

Salam Rockstars . . .

=]] Kumpulan Lirik Lagu Dan Kunci Gitar Deskripsi Lagu [[=

• Avenged Sevenfold - Turn the Other Way

Riff A:
e|-------------------|
B|-------------------|
G|-------------------|
D|--0---3-6--8-7--3~-|
A|--0---3-6--8-7--3~-|
D|--0---3-6--8-7--3~-|
---
Riff B:
e|----------------------------------------------------|
B|----------------------------------------------------|
G|----------------------------------------------------|
D|--000-00000-0-00000-----(5)-000-00000-0-00000--0-1--|
A|--000-00000-0-00000-(5)-----000-00000-0-00000--0-1--|
D|--000-00000-0-00000---------000-00000-0-00000--0-1--|     ... ..... . .....         ... ..... . .....  .
---
Riff C:
e|--------------------------------------------------------|
B|--------------------------------------------------------|
G|--------------------------------------------------------|
D|--000-00000-0-00000-----(5)-----000-00000-0-00000--0-1--|
A|--000-00000-0-00000-(5)-----(5)-000-00000-0-00000--0-1--|
D|--000-00000-0-00000-------------000-00000-0-00000--0-1--|     ... ..... . .....             ... ..... . .....  .
---
Riff D:
e|----------------------------------------------------------------|
B|----------------------------------------------------------------|
G|----------------------------------------------------------------|
D|--0-0---0-0-0---0---0-0-0-----(5)-0-0---0-0-0---0---0-0-0--0-1--|
A|--0-0---0-0-0---0---0-0-0-(5)-----0-0---0-0-0---0---0-0-0--0-1--|
D|--0-0---0-0-0---0---0-0-0---------0-0---0-0-0---0---0-0-0--0-1--|
---
Riff E:
e|--------------------------------------------------------------------|
B|--------------------------------------------------------------------|
G|--------------------------------------------------------------------|
D|--0-0---0-0-0---0---0-0-0-----(5)-----0-0---0-0-0---0---0-0-0--0-1--|
A|--0-0---0-0-0---0---0-0-0-(5)-----(5)-0-0---0-0-0---0---0-0-0--0-1--|
D|--0-0---0-0-0---0---0-0-0-------------0-0---0-0-0---0---0-0-0--0-1--|
---
Riff F:
e|-------------------------------|
B|-------------------------------|
G|-------------------------------|
D|-------------------------------|
A|--5-8-7----8--8-7-8-7-8/10-10--|
D|--------10-8--8-7-8-7-8/10-10--|
---
Riff G:
e|-------------------------------------|
B|-------------------------------------|
G|-------------------------------------|
D|------------------------7h8----------|
A|--5-8-7----8--8h10-8-10-----8p7-8-7--|
D|--------10-8--------------------8-7--|
---
Riff H:
e|------------------------------|
B|------------------------------|
G|------------------------------|
D|------------------------------|
A|--5-8-7----8--8h10-8-7-8-7----|
D|-------10-8---------------10--|     .
---
Riff I:
e|------------------------------------------------|
B|------------------------------------------------|
G|-------------------------------------------7-/--| D|--000-00000-0-00000-----000-00000-0-00000--7-/--|
A|--000-00000-0-00000-----000-00000-0-00000--5-/--|
D|--000-00000-0-00000-----000-00000-0-00000-------|     ... ..... . .....     ... ..... . .....
---
Riff J:
e|-------------------------------|
B|-------------------------------|
G|-------------------------------|
D|--0---0---0---------------(5)--|
A|--0---0---0---5-3-0------------|
D|--0---0---0---------6-5-3------|
---
Riff K:
e|-----------------------------------------------------------|
B|-----------------------------------------------------------|
G|-----------------------------------------------------------|
D|--0--0--0--0------------------1--1--1--1--------------(5)--|
A|--0--0--0--0------------------1--1--1--1--5-3-0------------|
D|--0--0--0--0--3p0-0-5p0-0-3p0-1--1--1--1--------6-5-3------|
---
Riff L:
e|-----------------------------------------------------------|
B|-----------------------------------------------------------|
G|----------------------------------------------------5p0-6--|
D|--0-0-----------0-0---------0-0-----------0-0-0-0----------|
A|--0-0------6p5--0-0------6--0-0------6p5--0-0-0-0----------|
D|--0-0--6p5------0-0--6p5----0-0--6p5------0-0-0-0----------|
---
Riff M:
e|-------------------------------|
B|-------------------------------|
G|-------7---8--------/8---10----|
D|--0-0----7---7--0-0----8----8--|
A|--0-0-----------0-0------------|
D|--0-0-----------0-0------------|
---
Riff N:
e|------------------------------------------------------|
B|------------------------------------------------------|
G|-------10h12p10---------------------------------------|
D|--0-0-----------12-10--12h13p12p10--------------------|
A|--0-0------------------------------13-12-13p12-10-12--| D|--0-0-------------------------------------------------|
---
Riff O:
e|------------------------------------|
B|------------------------------------|
G|-------10-12------------------------|
D|--0-0--------12--12-13-12-10----10--|
A|--0-0------------------------13-----|
D|--0-0-------------------------------|
---
Riff P:
e|---------------------------------------------------|
B|--6------8-8-10-10-11-----3------------------------|
G|--5------7-7--9--9-10-----2------------------------|
D|--3------5-5--7--7--8-----0-----1------3-----0-----|
A|--3-x12--5-5--7--7--8-x8--0-x8--1-x16--3-x8--0-x8--|
D|--3------5-5--7--7--8-----0-----1------3-----0-----|

e|-------------------------------------------------|
B|-------------------------------------------------|
G|---------------------3------------7-7---7-7-7-7--|
D|--5------3-3--1------3-x16--3-----7-7---7-7-7-7--|
A|--5-x14--3-3--1-x16--1------3-x8--5-5---5-5-5-5--|
D|--5------3-3--1-------------3--------------------|
---
Riff Q:
e|----------------------------------------|
B|----------------------------------------| G|----------------------------------------|
D|--5-5---5-5-5-5----5-5---555-6-5-1-3-6--|
A|--5-5---5-5-5-5----5-5---555-6-5-1-3-6--|
D|--5-5---5-5-5-5----5-5---555-6-5-1-3-6--|                              . . . . . .
---
Riff R:
e|---------------------------------------------------|
B|---------------------------------------------------|
G|----------------------------0h2-0------------------|
D|-----------------------------------3--2-3-2-0---2--|
A|----5-6-5--5-8-7-5-3-3--0-1-------------------3----|
D|--0------------------------------------------------|
---
Riff S:
e|----------------------------------------------------------|
B|----------------------------------------------------------|
G|----------------------------------------------------------|
D|-------------------5/7-5--7-8-7--8-10-8--7--5-7-5---------|
A|----5-6-5--5-8-7-5--------------------------------8-7--8--|
D|--0-------------------------------------------------------|

---
Song Order:
---

Right, this might be a bit tough to explain as there are so many riffs and a lot of them are only a few seconds long, but, this is the order in which each riff is played with a few of the lyrics that are sung at that point, to keep you on track):
Riff A x1 Riff B x1 Riff C x1 Riff D x1 Riff E x1 Riff F x1 (..slit my wrists..) Riff G x1 Riff F x1 Riff H x1 Riff I x1 Riff D x1 Riff E x1 Riff J x1 Riff K x4 (..came here for something..) Riff L x8 Half way through these eight, (..you hold the power..) Riff M x1 Riff N x1 Riff M x1 Riff O x1 Riff P x1 (..i've been the wrong one time and time again..) Riff Q x8 Riff R x1 After a few R's and S's, (..you've turned away from me..) Riff S x1
Repeat Riffs R and S whilst the song fades out.
---
Lirik Lagu
---
Slit my wrists, take away the pain. Slit my throat, everyone's to blame. Lost in the fields of confusion. Restless nights, they're not far away.
I came here for something and I'm not turning back. A calm piece of mind but you still hold my keys. Keeping my fate deep within your threshold. Petty inconvenience but it means the world to me.
You hold the power. To set me free. Caught in your grasp, how? Just let me be. Give me control out. Out of these depths. A fiery hell. I pray for death.
I've been the wrong one time and time again. Now I'm on my knees, forgive me please.
Tore out my heart and handed to me on a silver platter. Sew up the hole, emptiness in the place of compassion. You made me this way. I am the product of your creation. Look the other way. Now you've turned your back on me.
You've turned away from me, the future's much too far away to see. I hope you learn the truth, Not the way things were meant to be with me and you.

===============================

=]] Kumpulan Lirik Lagu Dan Kunci Gitar [[=

• Deskripsi Lagu : Turn the Other Way

Avenged merupakan salah satu band hard rock paling fenomenal di dunia. Band hard rock asal negeri paman Sam dengan lead vokalnya M. Shadow ini mengambil sebagian besar hati masyarakat Indonesia sekitar tahun 2008 dengan single mereka yang ke empat yaitu Dear God. Setelah itu, merebaklah sevenfoldism (nama fans Avenged Sevenfold) di Indonesia. Avenged Sevenfold atau juga dikenal dengan nama A7X (singkatan ini digagas oleh salah satu anggota mereka yaitu Zacky Vengeance) terbentuk pada tahun 1999 di Huntington Beach, California dengan anggota awal M. Shadow, The Rev, Zacky Vengeance dan Matt Wend. Nama Avenged Sevenfold sendiri dicetuskan oleh sang leader vocal yaitu M. Shadow bereferensi pada sebuah cerita Kain dan Abel pada Kitab Kejadian pasal 4 ayat 15 “And the LORD said unto him, Therefore whosoever slayeth Cain,
vengeance shall be taken on him sevenfold . And the LORD set a mark upon Cain, lest any finding him should kill him”. Meski nama band mereka bereferensi pada sebuah kitab, A7X bukanlah band religious.
Pada album perdana Sounding the Seventh Trumpet (2001), bassis A7X, Matt Wendt diambil alih oleh Justin Sane yang kemudian digantikan oleh Daemon Ash di tahun 2002. Pada era tersebut, salah satu personil yang sampai saat ini masih tergabung dengan A7X juga ikut bergabung yaitu Synister Gates, sang lead guitarist yang masih bertahan hingga sekarang. Di album mereka yang kedua yaitu Waking The Fallen (2003), formasi band ini kembali berubah dengan digantikannya sang bassis Daemon Ash oleh Johnny Christ. Sebelumnya, Johnny adalah seorang roadie (pengatur dan pemelihara alat music) yang sering menggantikan Ash ketika tidak bisa hadir. Deathbat adalah julukan untuk logo band hard rock ini, sebuah tengkorak dengan sayap kelelawar yang menempel. Desain logo ini dibuat oleh Mikha Montague, teman SMA personel A7X yang jago seni. Dan sampai sekarang logo ini sangat simbolis dengan Avenged Sevenfold. Sebelum kita membahas profil dan biodata Avenged Sevenfold terlengkap kita bahas dulu album yang telah mereka telurkan.



Saya Misugihzun Terimakasih Kepada Anda Telah Berkunjung, Tinggalkan KOMENTAR Anda, Dan SHARE Ke Sosial Media Jika Artikel Ini Bermanfaat, Dan FOLLOW Agar Tau Informasi Dari Band-Band Selanjutnya. WARNING !!! … • Privacy Policy [UUI : 1.8.2] DI LARANG KERAS MENG COPY PASTE ATAU MENYALIN HAK CIPTA ARTIKEL INI. KECUALI CANTUMKAN SUMBER URL ARTIKEL INI.

Next many more lyrics west, pop, hip-hop, clasical, tradisional, k-pop, j-pop, rock, blues, metalcore, hardcore, remix, DJ, beat, malaysia, melayu, indonesia, dangdut, underground, punk, scream, reggae, rohani, shalawat, and other song.

Share On:

That Song Lyrics and Guitar Chord from Avenged Sevenfold - Turn The Other Way || Kumpulan Lirik Lagu Dan Kunci Gitar Deskripsi Lagu • Rockstars

Now that you know the chords and lyrics Avenged Sevenfold - Turn The Other Way || Kumpulan Lirik Lagu Dan Kunci Gitar Deskripsi Lagu • Rockstars, what if you want to find lyrics and chord of another singer. Calm down, we have a lot of the lyrics song of the singer around the world.

You're reading an article Avenged Sevenfold - Turn The Other Way || Kumpulan Lirik Lagu Dan Kunci Gitar Deskripsi Lagu • Rockstars and this article permalink URL is https://www.biliklagu.tk/2016/11/avenged-sevenfold-turn-other-way.html Hopefully article this can be helpful and make you happy.